5/16/09

Link: Metallica bootlegs

Being a Metallica fanatic and bootleg collector, I've got an account over at etree.org. Check out my extensive collection! Wanna trade something ? Let me know! I have about 400 Gb of Metallica FLACs and DVDs now, and of those I guess about 25 DVDs of them are put into nice looking DVD covers with art from metcoverart.com. Every case has one backup in it as well. Planning to print inlays for my FLAC CD's as well. Some specs for DVD covers: Width = 278mm (Width = 272mm + 3mm bleed left + 3mm bleed Right) Hight = 190mm (Hight = 184mm + 3mm bleed top + 3mm bleed bottom) Some specs for CD covers: Width = 127mm (Width = 121mm + 3mm bleed left + 3mm bleed Right) Hight = 126mm (Hight = 120mm + 3mm bleed top + 3mm bleed bottom) (Taken from this site) Remember to not buy slim covers! Here's some Metallica demo material for you to check out. If i should mention the essential top 3 Metallica bootleg material, it would be: 1. Moscow 1991. Superior performance, great sound, great solos, great voice. Perfect. 2. Uniondale 1986. Best sounding Cliff-era material on video in circulation. 3. The Real No Life Till Leather (Mustaine era, his Jump in the Fire solo kicks Kirk's ass) Bonus: 1. Exodus demo tapes from 1982 with founder Kirk Hammett!

5/15/09

Tab: Manic Depression

I could spend a whole day tabbing all the small details here. There are palm mutes,slides and sublte hammer/pulls.... go figure..this is the main melody anyway. By me.

e ------------|----------|-----------
b ------------|----------|-----------
g ------------|----------|-----------
d -------5-6-7|---7p5-7p5|-(4x)---
a -5-6-7------|-0-0---0--|------------
E ------------|----------|-----------

e ---------------------------------
b ---------------------------------
g ---------------------------------
d -------------------------------
a -0-4-7---2-5-5-6-7-(4x part again)----
E -------3--------------------------
x
e ---------------------------------
b ---------------------------------
g ---------------------------------
d -----0----------------------------
a ---2-----2-5--5--4-5--4-5--2-3--2-3--2-3-2-------------0--
E -0-----3-----------------------------------3-2-3-2-3-2-----

e ---------------------------------
b --5---5----5---5--------------
g --7b9-7b9--7b9-7b9-------------------
d ---------------------------------
a -0--------0------------------------
E ---------------------------------

Tab: Golden Origo

Ok, this little classical piece is used alot by Metallica on tour before entering the stage. Its a real gem, only 1:48 long. By me . Here follows the melody line, but it could really do with some flavouring chords here and there.
e --------
b --------
g --------
d -9-10---
a ------7-
E -------- x8

e ------------------------------------------
b -------8----------------------------------
g ---9~~---9~~--7-9-7---9-7---9-7-----------
d -7------------------7-----7-----7-7-9-7~~-
a ------------------------------------------
E ------------------------------------------

e -------7-----------------------------
b ---------8~~---8------------8--------
g ---9~~-------9---9-7----7-9------7-9-
d -7-------------------10-------10-----
a -------------------------------------
E -------------------------------------
(ok... last 2 lines again)

e ------------------------------------------7-10-8-10-
b -------8-----------------------10-8~~---9-----------
g ---9~~---9~~--7-9-7---9-7---10--------9-------------
d -7------------------7-----7-------------------------
a ----------------------------------------------------
E ----------------------------------------------------

Tab: Anitra's Dance

Anitra's Dance

e -------------------------------------------
b -15-12----------12-15-12----------12----12-
g -------14-12-14----------14-12-14----14----
d -------------------------------------------
a -------------------------------------------
E -------------------------------------------

e ----------12----12---------------
b -15-12-15----12----15-12---------
g -------------------------14-12---
d ---------------------------------
a ---------------------------------
E ---------------------------------

e ----------12----12-14------------
b -15-12-15----12-------16-14------
g ----------------------------16---
d ---------------------------------
a ---------------------------------
E ---------------------------------

Tab: Brothers in Arms

Please, note, this is not complete, but has most parts covered. This represents my personal interpretation of the song, and may only be used non-commercially. Not that difficult to play, but you‘ll need to put some feeling into it. Timing not represented, and you’ll have to add vibrato at proper places. Everything should be here (it’s a lot to learn!), including the fade-outro as far as I could hear it. This song is a real beauty, and it’s awsome to play when you get it right! Offcourse, there are mistakes here, and I know about some of them too, especially the two-string chords(the distortion distorted me too). Feel free to correct them. (But let me know about it!) Some parts may be more or less correct to play at other frets, with respect to the sound, but I usually stay around fret 12. Tune down to Db. (half step) Synth intro (F and Em) Notation: 7s9 slide 7h9 hammer 9p7 pull 7b9 bend 9b7 prebend (or release) x mute xs pick slide | these bars separate the parts/riffs pm palm mute


Intro (Synth part goes in Em and F.)

00:37
---------|--------|-----------------------|----------
---------|--------|-----------------------|----------
---------|--------|-----------------------|----------
---7-9-7-|-7-9-7--|---9b10s12-10----------|-12-14-12-
-5s7-----|--------|-x------------12-10-12-|----------
---------|--------|-----------------------|----------

------------------------------------|-------|------------
------------------------------------|-------|------------
------------------------------------|-------|------------
-12b14-12---------------------------|-------|------------
----------15-14-12----12-14-12---12-|-15b17-|---12-14-12-
-------------------15----------15---|-------|-15---------

Verse 1

-----------------|-----------------|-------|-------
-----------------|-----------------|-------|-------
-----------------|-----------------|-------|-------
-12b14b12p10h12--|--14-12----12h14-|-14----|-------
-----------------|-----------------|----14-|-------
-----------------|-----------------|-------|-------


----------|-----------------------------|----------
----------|-----------------------------|----------
-10-7-----|-----------------------------|----------
-12-9-----|-10p9h10s12-10-9-------------|----------
----------|-----------------12-10-12-12-|----------
----------|-----------------------------|----------

--------------------------------------------|----
--------------------------------------------|----
--------------------------------------------|----
-12----10-9-12-10-9-------------12-14-12----|-14-
--------------------12-10-12----------------|----
--------------------------------------------|----


-----------|---------|-----------|-------
-----------|---------|-8-7---8---|-------
--9p7---7--|-9-10-12-|-----9-----|-------
------7-7h9|---------|---------9-|-10-12-
-----------|---------|-----------|-------
-----------|---------|-----------|-------
pm
------------|------------|--------|
-10-8-7-8---|------------|--------|
----------9-|------------|-10-9-7-|
------------|-10-12-10-9-|-12---9-|
------------|------------|--------|
------------|------------|--------|

-------------------------------|---------------------------
-------------------------------|------------------------------
----12b14-14b12----------------|-----------------------------------
-14------------14-12-----------|-9b10s12-10-9------9-------------14-12-
---------------------15-14--12-|--------------10-12--12-12--14-15---
--------------------------15---|----------------------------------

----|-------------------------|-------------|------------|
----|---------------5-----5-8-|-------------|-6-5-----5--|
----|-12-s--------5---7-7-----|-4-5-4---5s7-|-----7-5--7-|
-14-|-12-s------7-------------|-------7-----|------------|
----|-------5s7---------------|-------------|------------|
----|-------------------------|-------------|------------|


1st. solo (well, it’s all a kind of solo)
------|--------------------------------------------------------
------|---------------------------------------------------------
------|-------------12b14b12----12b14-12----------12b14-14h16p14-----
------|-------12-14----------15----------14----14----------------17-15-
-xs-3-|-12-15-------------------------------15----------------------
----1-|-----------------------------------------

-------------------------------------------------
-------------------------------------------------
----12----12----12b14-12-------------------------
-14----14----14----------14-12-------------------
-------------------------------15-14-12----12-12-
----------------------------------------15-------

------------------------------|--------------|----
------------------------------|--------------|----
------------------------------|--------------|----
-10-12-x-14b12-10-------14-12-|-14-12-10-9-7-|----
------------------12-15-------|--------------|----
------------------------------|--------------|----

----------|-------|-------------------|---------------------------
----------|-------|-------------------|---------------------------
----------|-------|-14b16b14-12h14p12-|---------------------------
-12-12----|-15s17-|-------------------|14-------------14-15--14---
-12-12h14-|-------|-------------------|---------12-15----------15-
----------|-------|-------------------|---13-15-------------------

------------------------------------|----|------------|
-10b12-10---10b12b10b12-12s--12-10--|----|-6-5--------|
----------12---------------12-------|-12-|-----10-9-7-|
------------------------------------|----|-----12---9-|
------------------------------------|----|------------|
------------------------------------|----|------------|

2nd. solo
----------------------------|-------------------------------
----------------------------|-------------------------------
-12b14-12-------------------|----14-12b14-14-16-14----12b14-
----------14-12-------------|-14-------------------17-------
----------------15-14----12-|-------------------------------
----------------------15----|-------------------------------

?????????????????
-------------------|--------------------------|---------------------
-------------------|--------------------------|---------------------
-14-12-------------|-7h9-7-7--7-7--7-7-7------|---------------------
-------15-14----12-|-7---7-10-7-10-9-7-9------|------12-12b14b12----
-------------15----|--------------------------|-x-15-------------15-
-------------------|--------------------------|---------------------

???????????????????
------------------------------------
------------------------------------
---------------12-12----------------
---------------12-12h14p12-12-12----
-12-15-14-15-x-------------12-12h15-
------------------------------------

Last solo
-----------------------------------------------------
-----------12-13-13----------------12-13-13----13b15-
--------------------12s14----12-14----------14-------
----12-14-----------12s14-14-------------------------
-15--------------------------------------------------
-----------------------------------------------------
?????????????????????
---------------------------------------------------
-13b15b13-12---------------------------------------
-------------14-12---------------------------------
-------------------14-12-14-------12---------------
----------------------------15-14----15-14-15---12-
----------------------------------------------15---

Outro ( ?????????
-----------------------------------------|--------------|-
-----------------------------------------|--------------|-
-----------------------------12-x-x-x-12-|-12-12-12-12--|-
---10-12-12b14----12b14----x-12-------12-|-17-15-15-14--|-
-x-------------15-------15---------------|--------------|-
-----------------------------------------|--------------|-

??? ????????????
-------|---------------|-------|-----------------
-------|-6-5-----------|-------|-----------------
-12----|-----7-5-------|-12----|-12----12--------
-12-12-|---------7-----|-12h14-|-12h14-12-12-12-
----12-|---------------|-------|----------15-12--
-------|---------------|-------|-----------------


--------------------------------15---------------------12----
-----------13b15-13-12-13b15-13----15b17b15-13-12---13----15-
----12-14----------------------------------------14----------
-14----------------------------------------------------------
-------------------------------------------------------------
-------------------------------------------------------------

???????????????
-12h13p12---12-----------------------------------------
----------15---13-15----13-12--------------------------
------------------------------12b14-14-12---------------
---------------------14-------------------------
----------------------------------------------
----------------------------------------------

----------------------------------------------
----------------------------------------------5b6--
------5---7-7b9b7-5------------------7----5-7---
--5-7---------------7--x-x-x-5h7p5h7----7-------
--------------------------------------------------
------------------------------------------------
pm

--------5-5--------------------------------------
-5b-----8-6--5-6-5------------------------------------
-5b-7-5------------7-5-------------------------------
-----------------------------------------------
-----------------------------------------------
-----------------------------------------------
bend delay
1/4 ----------
step

--------------------------------13-12----12--------
-----------------12-13-13------15-----13----13b15-----
-12-14-12-14--14-----------14-14-----------------------
------------------------------------------------------
------------------------------------------------------
------------------------------------------------------
almost mute these notes
----
-----13-12---------------------------------------------
--15------15-13-12-13-12-------------------------------
-14---------------------14-12---------12---------------
-----------------------------14-12-14----14-12---------
----------------------------------------------15-14-12-
-------------------------------------------------------
here too
---
------------------------------------------------------
------------------------------------------------------
------------------------------------------------------
------------------------------------------------------
-s-12-14-15--14--12-------s-12------------------------
--------------------15-12------15---------------------

Tab: Hall of the Mountain King

Two famous songs composed by the Norwegian composer Edvard Grieg. This is loosely how I would play it on guitar.
The original name of the first songs is "Dovregubbens Hall".

by the most exellent norwegian composer: Edvard Grieg!
(Tabbed this from a classic record. Make the best of this!)
By me.

Intro
e -----------------|--------------------
b -----------------|--------------------
g -----------------|---------------------
d -----------------|----7----7----7----7-
a ---9---9---9---9-|----------------------
E -7---7---7---7---|-10---10---10---10------

Riff 1
e -----------------------------------------------------------------
b -----------------------------------------------------------------
g -----------------------------------------------------------------
d -------------------------------------------------9-7--------7-----
a -------7--9---9--8---8--7---7-----------7-9----9-----9----9-------
E -7-9-10----10------9------8-------7-9-10----10---------10---------


Riff 2
e -------------------------------------------
b ------------------------------------------
g --------------------------------------------
d ---------9--11--11--12--12--11--11------
a -8-11-13------13------13------13--------
E -------------------------------------------

e -------------------------------------------
b ------------------------------------------
g --------------------------------------------
d ---------9--11--11--13--13--11--11------
a -8-11-13------13------13------13--------
E -------------------------------------------

e -------------------------------------------
b ------------------------------------------
g --------------------------------------------
d ---------9--11--11--12--12--11~~--------
a -8-11-13------13------13--------------
E -------------------------------------------

Ok, these are the main notes.
I found it funny to play solo with a ’india-feel’ to riff 2!

Tab: Intro to Damage Inc.

These are the guitar chords that go with the Cliff's bass intro. I really like this progression!

D Bm C G A G Bm A