Showing posts with label hendrix. Show all posts
Showing posts with label hendrix. Show all posts

5/15/09

Tab: Manic Depression

I could spend a whole day tabbing all the small details here. There are palm mutes,slides and sublte hammer/pulls.... go figure..this is the main melody anyway. By me.

e ------------|----------|-----------
b ------------|----------|-----------
g ------------|----------|-----------
d -------5-6-7|---7p5-7p5|-(4x)---
a -5-6-7------|-0-0---0--|------------
E ------------|----------|-----------

e ---------------------------------
b ---------------------------------
g ---------------------------------
d -------------------------------
a -0-4-7---2-5-5-6-7-(4x part again)----
E -------3--------------------------
x
e ---------------------------------
b ---------------------------------
g ---------------------------------
d -----0----------------------------
a ---2-----2-5--5--4-5--4-5--2-3--2-3--2-3-2-------------0--
E -0-----3-----------------------------------3-2-3-2-3-2-----

e ---------------------------------
b --5---5----5---5--------------
g --7b9-7b9--7b9-7b9-------------------
d ---------------------------------
a -0--------0------------------------
E ---------------------------------