Showing posts with label doors. Show all posts
Showing posts with label doors. Show all posts

2/14/09

Tab: People are strange - Doors

People are Strange - The Doors Not complete! Tabbed: Eivind F 1999
e -------------------------------------------------------------
b -------------------------------------------------------------
g ----------------0-0---------2-0---------2-----0--------------
d --------------2-----------2-----------2---0h2----------------
a 2-0---------2-------2-1-0-------2-1-0-----0-----0-1-2---0-2--
E ----3b1/4-0-------------------------------------------2-----0

e -------------------------------------
b -------------------------------------
g -------------0---------2-0---------2-
d -----------2---------2-----------2---
a -2-0-----2-----2-1-0-------2-1-0-----
E -----3-0-----------------------------