Showing posts with label grieg. Show all posts
Showing posts with label grieg. Show all posts

5/15/09

Tab: Anitra's Dance

Anitra's Dance

e -------------------------------------------
b -15-12----------12-15-12----------12----12-
g -------14-12-14----------14-12-14----14----
d -------------------------------------------
a -------------------------------------------
E -------------------------------------------

e ----------12----12---------------
b -15-12-15----12----15-12---------
g -------------------------14-12---
d ---------------------------------
a ---------------------------------
E ---------------------------------

e ----------12----12-14------------
b -15-12-15----12-------16-14------
g ----------------------------16---
d ---------------------------------
a ---------------------------------
E ---------------------------------

Tab: Hall of the Mountain King

Two famous songs composed by the Norwegian composer Edvard Grieg. This is loosely how I would play it on guitar.
The original name of the first songs is "Dovregubbens Hall".

by the most exellent norwegian composer: Edvard Grieg!
(Tabbed this from a classic record. Make the best of this!)
By me.

Intro
e -----------------|--------------------
b -----------------|--------------------
g -----------------|---------------------
d -----------------|----7----7----7----7-
a ---9---9---9---9-|----------------------
E -7---7---7---7---|-10---10---10---10------

Riff 1
e -----------------------------------------------------------------
b -----------------------------------------------------------------
g -----------------------------------------------------------------
d -------------------------------------------------9-7--------7-----
a -------7--9---9--8---8--7---7-----------7-9----9-----9----9-------
E -7-9-10----10------9------8-------7-9-10----10---------10---------


Riff 2
e -------------------------------------------
b ------------------------------------------
g --------------------------------------------
d ---------9--11--11--12--12--11--11------
a -8-11-13------13------13------13--------
E -------------------------------------------

e -------------------------------------------
b ------------------------------------------
g --------------------------------------------
d ---------9--11--11--13--13--11--11------
a -8-11-13------13------13------13--------
E -------------------------------------------

e -------------------------------------------
b ------------------------------------------
g --------------------------------------------
d ---------9--11--11--12--12--11~~--------
a -8-11-13------13------13--------------
E -------------------------------------------

Ok, these are the main notes.
I found it funny to play solo with a ’india-feel’ to riff 2!