Showing posts with label metallica. Show all posts
Showing posts with label metallica. Show all posts

4/12/12

Metallica Roskilde 86 2nd gen complete

 Just had to grab the opportunity to grab one of the most prized Metallica bootlegs ever: The *complete 2nd gen copy* of the Roskilde 86 show. (The 1st gen is destined to go with the taper to the grave and will *never ever* be released.)
From the left:
Dual DVD transfers of Toronto and Quebec 86
Germany 85 Remade with multiple audio
The Green one there: 2n gen Roskilde DVD!

Some jewels: (From the left)
California: Anaheim 86 (Jasons's 2nd show, uncorrupted version)
New York: Uniondale 86 1st gen LPCM audio
Sweden, Frødalundborg: 1987 Remade with as much SBD as we could find
 


Various, including a Roam tour rehearsal proshot

And heres an overview of the whole collection
(Yeah right like I even printed out 10% of what i have) :) :) :)




Interested in trading: Check my trading list (a bit out of date, will update soonish as all the veterans are releasing their stuff before Metfuk goes down)

Leave a comment if you're interested!

Here's some more pics:

2/12/10

Trading: Metallica bootlegs

More Metallica Bootlegs
Here's a photo of some of my Metallica bootleg collection.
I've got atleast 20-30 covers/inlays with DVD's in them and around 20-30 new shows since last post! Please visit my trading page (URL in link below). Earlier bootleg picture post here.



Some of the audio directories!



And that's just the audio that I've sorted yet! I claim that i have the biggest Metallica bootleg collection in Norway.

1/14/10

Tab: Carpe Diem - Metallica

Metallica: CARPE DIEM BABY off reLOAD Partially & bits & pieces tabbed by: Eivind eivind256 at hotmail dot com 20/11/1997. Not finished, obviously.
Notation legend: 
\12   = slide from nowhere to here 
12\   = slide from here to nowhere 
14~   = vibrato 
14b16 = bend at 14th fret till you reach the pitch of the 16th fret 
16b14 = prebend (if your'e not already there) to 16th pitch, release to 14th fret 
\\    = pick slide / 'move-left-hand-noise' (gotta play it *LOUD* to get the effect!!)) 
P.M.  = palm mute P.S. = pick slide WHILE playing notes 
N.H.  = natural harmonics 
A.H.  = artificial harmonics SOLO: (starts at ~03:20 ) 

e:------\12---------------12---------------12-------------------
b:------\12---------------12---------------12-------------------
g:-------------------------------------------------14-----------
d:---------14-14~~---12-14--14-14~~---12-14--12-14----12-12~~-12
a:--------------------------------------------------------------
E:-0------------------------------------------------------------
   P.M. (here you gotta *gradually* palm mute it!

e:-----------------------12-----------------------------------
b:-----------------------12-----------------------------------
g:---------------------------------------12-14b16b14-------12-
d:----14-14---12h14-14-14--14-14\-12-14--------------14-12-14-
a:------------------------------------------------------------
E:------------------------------------------------------------

fast bit
e:----------------------------
b:----------------------------
g:--------12--12-14-----14----
d:14p12h14--14-----12h14------
a:----------------------------
E:----------------------------

Indian bit: Very delicate scale!!
e:-------------------------------------------------------
b:-------------------------------------------------------
g:-13b14b13----------------------------------------------
d:---------14\\--6b7b6--7-6-9b10b9\--7-6-9b10b9-6-10-9\\-
a:-----------\\-------7------------------------7------\\-
E:-----------\\---------------------------------------\\-

                          __there is something wrong here..
e:----------------------------------------
b:----------------------------------------
g:----------------------------------------
d:--6b7b6---6b7b6---6b7b6-6\7-6b7\9\10\9--
a:-7-----7-------7-------7----------------
E:----------------------------------------

e:------------------------------------------------------
b:------------------------------------------------------
g:------------------------------------------------------
d:-\9-9-10-9-9-9\--9-9-10-9-9--9-9-10-9-9-7-9-9--9--9---
a:-----------------------------|------------------------
E:-----------------------------|------------------------
               P.M. this note!

this bit is very fucked by effects...(muted strings,harmonics,palm muting... very possible that i made some mistakes here...

   N.H.    N.H.        N.H.   N.H.  N.H.  
e:---------------------------------------
b:----------------------------------x----
g:-x-------x-----------x------x--11-12-11
d:-13-10-9-7-9--9-10-9-7-9-10-13---------
a:-|-------|-----------------------------
E:-|-------|-----------------------------
   |  P.S. |                             
   |__P.M._|
   (move pick attacks towards brigde)

(the muted strings almost sounds harmonics!)   
-------------------------------------       
----------------------------\12-12-12~      
---11-9-11-12-11--11-12-11-----------       
------|------------------------------          
------|------------------------------          
------|------------------------------          
      P.M. this note!      

e:-------------------------------------
b:-\17\------19/17\19~~\------\20\-----
g:-------------------------------------
d:-------------------------------------
a:-------------------------------------
E:-------------------------------------

-\17--22b24~~--22b24-22b24-22b24-22b24b22-
------------------------------------------
------------------------------------------
------------------------------------------
------------------------------------------
------------------------------------------


e:-16b18b16--------------------------------
b:------------19\--------------------------
g:--------------------------------7h9-9-9~~
d:----------------------------7h9----------
a:--------------------6h7-7-7--------------
E:-----------------------------------------

5/16/09

Link: Metallica bootlegs

Being a Metallica fanatic and bootleg collector, I've got an account over at etree.org. Check out my extensive collection! Wanna trade something ? Let me know! I have about 400 Gb of Metallica FLACs and DVDs now, and of those I guess about 25 DVDs of them are put into nice looking DVD covers with art from metcoverart.com. Every case has one backup in it as well. Planning to print inlays for my FLAC CD's as well. Some specs for DVD covers: Width = 278mm (Width = 272mm + 3mm bleed left + 3mm bleed Right) Hight = 190mm (Hight = 184mm + 3mm bleed top + 3mm bleed bottom) Some specs for CD covers: Width = 127mm (Width = 121mm + 3mm bleed left + 3mm bleed Right) Hight = 126mm (Hight = 120mm + 3mm bleed top + 3mm bleed bottom) (Taken from this site) Remember to not buy slim covers! Here's some Metallica demo material for you to check out. If i should mention the essential top 3 Metallica bootleg material, it would be: 1. Moscow 1991. Superior performance, great sound, great solos, great voice. Perfect. 2. Uniondale 1986. Best sounding Cliff-era material on video in circulation. 3. The Real No Life Till Leather (Mustaine era, his Jump in the Fire solo kicks Kirk's ass) Bonus: 1. Exodus demo tapes from 1982 with founder Kirk Hammett!

5/15/09

Tab: Golden Origo

Ok, this little classical piece is used alot by Metallica on tour before entering the stage. Its a real gem, only 1:48 long. By me . Here follows the melody line, but it could really do with some flavouring chords here and there.
e --------
b --------
g --------
d -9-10---
a ------7-
E -------- x8

e ------------------------------------------
b -------8----------------------------------
g ---9~~---9~~--7-9-7---9-7---9-7-----------
d -7------------------7-----7-----7-7-9-7~~-
a ------------------------------------------
E ------------------------------------------

e -------7-----------------------------
b ---------8~~---8------------8--------
g ---9~~-------9---9-7----7-9------7-9-
d -7-------------------10-------10-----
a -------------------------------------
E -------------------------------------
(ok... last 2 lines again)

e ------------------------------------------7-10-8-10-
b -------8-----------------------10-8~~---9-----------
g ---9~~---9~~--7-9-7---9-7---10--------9-------------
d -7------------------7-----7-------------------------
a ----------------------------------------------------
E ----------------------------------------------------

Tab: Intro to Damage Inc.

These are the guitar chords that go with the Cliff's bass intro. I really like this progression!

D Bm C G A G Bm A

2/14/09

Tab: Turn the Page - Metallica

Guitar solo w/slide by Kirk Hammett (Metallica) (Prelude to Turn the Page, live from the Garage tour, N.Y. 1999) If you havent heard it, its a spooky,far-out cowboy-doodle. (imagine the two duelists just about to draw the guns in a wild-west town, blood red sky as the sun sets, the ravens circles high above and..yada yada.yada...you get the picture) Tabbed in an hour by Eivind F., eivind256 at hotmail dot com (may not be perfect, but i wanna save my vid-tape so i can watch it later too! maybe i'll update it.) Not extremely well performed, but has many moody licks (Kirk also fucks badly up at one point.then again, i've never before seen Kirk play live with a slide) I'm definitively stealing this piece of snack, it just needs a minor face-lift! Legend: ~ means hold note and vibrate it s means slide from note JUST prior to the s or from anywhere (you must really judge that on the spot) offcourse theres alot of 'ghost notes', but they'll come naturally and one more thing, at the double string slides, you must usually accuentate(?) one of the notes, usually the highest one. Play with delay, medium distortion and the tone switch upwards.(The soft,filtered tone) I use effect no. F1 with delay on the Zoom 505 effect box for this one.

                          ? goes fast, maybe just one 12s10  
e ---------------------12-12s10 12s10----12~~-----
b -----------------s12-12-------------10s12~~-----
g -4s9~~-9s7-7s9~~--------------------------------
d -----------7s9~~--------------------------------
a ------------------------------------------------
E ------------------------------------------------
   (vol swell on 4s9)

e -s15-s15~~-s17-s17~~-19~~-s12s10----12~~--------
b ---------------------------------10s12~~--------
g ------------------------------------------------
d ------------------------------------------------
a ------------------------------------------------
E ------------------------------------------------

e -12---------------------------------------------
b ---12-------------------------------------------
g -----12s7--9~~-7s9-7s9-7s9~~-9s7---7s9~~--------
d ---------7s9~~---------7s9~~-----9-7s9~~--------
a ------------------------------------------------
E ------------------------------------------------

ah! really a nice measure!
e -----------------------------------------
b -8s5-5s3---------------------------------
g ---------4s7-7s5-------------------------
d -----------------7-----------------------
a -------------------5s7~~-7s5------s7~~---
E ----------------------------5s7-0--------

oops, Kirk *very rarely* fucks up like this! (the stupid MTV camera man just did'nt catch what happened, ofcourse)

e ------12~~~---???---------------------------------------------
b -s12-(12)~~--?---?--------------------------------------------
g ----------------?--(lots of noise)----------------------------
d ---------------?--drop guitar in floor to achieve the sound!--
a --------------------------------------------------------------
E ---------------?----------------------------------------------
(Kirk blinked, grinned a "oh no!!, why now while i was really in it?!" type of grin,but continued!)

e ------------------------------------------------
b ------------------------------------------------
g -----9s12~~-s12-s12-s12-12s9--------------------
d -7s9-------------------------7s9~~--------------
a ------------------------------------------------
E ------------------------------------------------

e ------------------------------------------------
b -------8s7-----7--------------------------------
g -----9-----7s9--7s9s7---s9-s9~~-----------------
d -7s9------------------9-------------------------
a ------------------------------------------------
E ------------------------------------------------

e ------------------------------------------------
b -------8~~-s10-s10-s10--------------------------
g -----9-----------------9s7-7s9~-----------------
d -7s9-----------------------7s9~-----------------
a ------------------------------------------------
E ------------------------------------------------

e ------------------------------------------------
b -------8s7-----7--------------------------------
g -----9-----7s9--7s9s7---s9-s9~~-----------------
d -7s9------------------9-------------------------
a ------------------------------------------------
E ------------------------------------------------

e ------------------------------------------------
b ------------------------------------------------
g -s9~~-7-----------------------------------------
d -------s6s4-------------------------------------
a ------------s7s5s7------------------------------
E -------------------5s7-0------------------------

e ----12----12---12~~-12--------------------------
b -s12---s12---s12~~----12------------------------
g ------------------------12s7-7s9~~--------------
d -----------------------------7s9~~--------------
a ------------------------------------------------
E ------------------------------------------------