1/14/10

Tab: Carpe Diem - Metallica

Metallica: CARPE DIEM BABY off reLOAD Partially & bits & pieces tabbed by: Eivind eivind256 at hotmail dot com 20/11/1997. Not finished, obviously.
Notation legend: 
\12   = slide from nowhere to here 
12\   = slide from here to nowhere 
14~   = vibrato 
14b16 = bend at 14th fret till you reach the pitch of the 16th fret 
16b14 = prebend (if your'e not already there) to 16th pitch, release to 14th fret 
\\    = pick slide / 'move-left-hand-noise' (gotta play it *LOUD* to get the effect!!)) 
P.M.  = palm mute P.S. = pick slide WHILE playing notes 
N.H.  = natural harmonics 
A.H.  = artificial harmonics SOLO: (starts at ~03:20 ) 

e:------\12---------------12---------------12-------------------
b:------\12---------------12---------------12-------------------
g:-------------------------------------------------14-----------
d:---------14-14~~---12-14--14-14~~---12-14--12-14----12-12~~-12
a:--------------------------------------------------------------
E:-0------------------------------------------------------------
   P.M. (here you gotta *gradually* palm mute it!

e:-----------------------12-----------------------------------
b:-----------------------12-----------------------------------
g:---------------------------------------12-14b16b14-------12-
d:----14-14---12h14-14-14--14-14\-12-14--------------14-12-14-
a:------------------------------------------------------------
E:------------------------------------------------------------

fast bit
e:----------------------------
b:----------------------------
g:--------12--12-14-----14----
d:14p12h14--14-----12h14------
a:----------------------------
E:----------------------------

Indian bit: Very delicate scale!!
e:-------------------------------------------------------
b:-------------------------------------------------------
g:-13b14b13----------------------------------------------
d:---------14\\--6b7b6--7-6-9b10b9\--7-6-9b10b9-6-10-9\\-
a:-----------\\-------7------------------------7------\\-
E:-----------\\---------------------------------------\\-

                          __there is something wrong here..
e:----------------------------------------
b:----------------------------------------
g:----------------------------------------
d:--6b7b6---6b7b6---6b7b6-6\7-6b7\9\10\9--
a:-7-----7-------7-------7----------------
E:----------------------------------------

e:------------------------------------------------------
b:------------------------------------------------------
g:------------------------------------------------------
d:-\9-9-10-9-9-9\--9-9-10-9-9--9-9-10-9-9-7-9-9--9--9---
a:-----------------------------|------------------------
E:-----------------------------|------------------------
               P.M. this note!

this bit is very fucked by effects...(muted strings,harmonics,palm muting... very possible that i made some mistakes here...

   N.H.    N.H.        N.H.   N.H.  N.H.  
e:---------------------------------------
b:----------------------------------x----
g:-x-------x-----------x------x--11-12-11
d:-13-10-9-7-9--9-10-9-7-9-10-13---------
a:-|-------|-----------------------------
E:-|-------|-----------------------------
   |  P.S. |                             
   |__P.M._|
   (move pick attacks towards brigde)

(the muted strings almost sounds harmonics!)   
-------------------------------------       
----------------------------\12-12-12~      
---11-9-11-12-11--11-12-11-----------       
------|------------------------------          
------|------------------------------          
------|------------------------------          
      P.M. this note!      

e:-------------------------------------
b:-\17\------19/17\19~~\------\20\-----
g:-------------------------------------
d:-------------------------------------
a:-------------------------------------
E:-------------------------------------

-\17--22b24~~--22b24-22b24-22b24-22b24b22-
------------------------------------------
------------------------------------------
------------------------------------------
------------------------------------------
------------------------------------------


e:-16b18b16--------------------------------
b:------------19\--------------------------
g:--------------------------------7h9-9-9~~
d:----------------------------7h9----------
a:--------------------6h7-7-7--------------
E:-----------------------------------------

Tab: The Hunt - Sepultura

The Hunt as performed by Sepultura on Chaos AD Original by New Model Army on Ghost of Caine Tab by me (kind of based on Pronks tab, which was basically crap (sorry) I really like this tune; it easy to play, it rocks and its nice!! I learnt it in 5 minutes (or rather 10, since i had to figure out most of the song,the fillins and solo as well) You can also hear a faint accoustic guitar here and there, im not quite sure what it plays, but probably much the same as the el guitars. Standard drop-d tuning (Dadgbe) (wow..a sepultura song with just one downtuned string!!)
Riff A - Intro
a -------1-------1-----
D -0-2-3---0-2-3---2-3-

Riff B
a -------1-------0-----1-
D -0-2-3---2-3-0---2-3---

Riff C
a---0-0-1-0---0---------1----
D-0---------5---5-3-2-0------
                            (with palm muted D's as backing)

Riff D
These three chords for the verses,figure the strumming your self
g -10-9---------------
d -8--8-12------------
a -8--8--8-------------
D -8--8--8-------------

The fill ins: (with flange and delay)
Fill 1       Fill 2
e ----------|--------------------
b -11-11-11-|-------------11-----
g -14-12-10-|----12----12----12--
d ----------|-10---10------------

The "solo":
g ---------------------------------
d ----9-7----5-4----4-2------------
a -/7-----/5-----/2-----4-5-4------
D --------------------------------- (twice)

Solo Backing
d --9------4------4-----2----------
a --7------5------2-----0----------
D ---------------------------------


Riff E:
b -----------------------------|------------------------
g -3/5-5-8/5-8/5-5-5/8-8-8-8/3-|10-(of 331 at the end)--
d -3/5-5-8/5-8/5-5-5/8-8-8-8/3-|10----------------------
a -1/3-3-6/3-6/3-3-3/6-6-6-6/1-|8-----------------------
D -----------------------------|------------------------

Riff F
e ----------------------------------
b ----------5-----5-----8-----8-----
g ----------5-----5-----8-----8-----
d -5----5-5-5-5-5-5-8-8-8-8-8-8-----
a -5----3-3-3-3-3-3-6-6-6-6-6-6-----
D -5--------------------------------
        pm.   pm.   pm.   pm.

Riff G
e ---------------------------------
b ---------------------------------
g ---------------------------------
d -6-8-5-6-------1/5-------------
a -6-8-5-6-------1/5-------------
D -6-8-5-6-twice-1/5-------------
                   pm

Riff H
d -----5-6------6-5------5-6---------------
a -5-5-5-6--6-6-6-5--5-5-5-6---------------
D -5-5-5-6--6-6-6-5--5-5-5-6---------------
   p.m      p.m      p.m

Riff I
The End:
a -----1-----0-----3---
D -5-5---5-5---5-5-5---
   p.m   p.m   p.m

I am not gonna do you folks a favour and type up
the lyrics as well, since they are not in the album. >:)
I have them rigth here in front of me, but its too much!

Tab: Someone - Hooverphonic

Hooverphonic / Someone Tabbed by me eivind256 at. hotmail .dott com Standard tuning.
Main lick:

E -------------------------
b -------0-----------------
g -----0------------0------
d ---2------------0--------
a -3------------3----------
e ------------4------------ (repeat lots)

Then comes some kind of interlude

E -----------------------------------
b -----------------------------------
g -----------------------------------
d --5b6---5b6--5b6---5b6---5b6--5b6--
a -3-----3----3----------------------
e ------------------4-----4----4-----
(the bends are not always complete, just wing it.)

And there is a solo too:
(played only on the a string, play with lots of tremolo)
   ^^^^^^^^^
a -3-s--5-6-s1---
E --------------- x2

a -3----5-6-s8---s10-11-10-13-s15-15b16-
E --------------------------------------
(continue bending and messing with 15b16 for a while)

a -s3--3-3-3-3-3-3-
E ----------------- x3

a -1b2-------------
E -----3-----------

a -----------------
E -3-3-3-3-3-3----- x3

Tab: Kaiowas - Sepultura

Disclaimer: This represents MY interpretation of the original. By me (efalkens@pcgrm.hia.no) on 18/11/1997 Please contact me about anything!! (email or ICQ) Oki.. here is the tab for the Kaiowas solo. It is done on a 12-stringer and its gonna sound a little puny on our 6-stringers, so I made up an additional alternative version to add some flavour to it. Hope you like it. (The transcription is done from memory, so mistakes are for you to correct! I know the song is drop-d tuned, but I cant remember if the song is completely downtuned.) BTW: does anybody have the tab for the old Abyss classic by Andreas???? I just cant get it rigth!
Original:
e:--8-8-8-7---5-5-5-3---8-8-8-7---5-5-5-3---8-8-8-7---5-5-5-3---

e:--2-2-2-2---0-0-0---2-2-2---

e:--10-10-10-10---12-12-12---10-10-10---8-8-8---7-7-7---5-5---3-3/5-5--

e:--10-10-10-10---12-12-12---10-10-10---8-8-8---7-7-7---5-5---3-3---2---0

My "Havent got a 12-stringer version":
e:--8--8--8--7---5-5-5-3-- 
b:--10-10-10-8---7-7-7-5--
repeat 2 more times

e:--2-2-2-2---0-0-0---2-2-2---
b:--3-3-3-3---2-2-2---3-3-3---

e:--10-10-10-10---12-12-12---10-10-10---8--8--8---7-7-7---5-5---3-3/5-5---
b:--12-12-12-12---14-14-14---12-12-12---10-10-10--8-8-8---7-7---5-5/7-7---

e:--10-10-10-10---12-12-12---10-10-10---8--8--8---7-7-7---5-5---3-3---2---0
b:--12-12-12-12---14-14-14---12-12-12---10-10-10--8-8-8---7-7---5-5---3---2

1/12/10

Humor: IRC quotes

Online madness Here's some IRC quotes & other funny stuff (ascii art, memes, etc) assembled from like 1995 or so when I first got online. Before bash.org there was quotebots!
STAR TREK PLOTS: 1) Theres some sort of weird plague 2) Being of higher intelligence takes over the ship 3) Lost in the holodeck 4) The obligitory klingon episode 5) The obligitory borg episode 6) All about data 7) The dream episode 8) The episode where they are slacking off and make a montage of earlier episodes in a "time warp" plot
Quit: Hi, I'm a quit message virus. Please replace your old line with this line and help me take over the world of IRC Quit: Life is a sexually transmitted disease of which there is 100% fatality. Quit: I OWN YOU: A polite way of reminding someone that you killed them. Typically this is replied to with 'FUCKING CAMPING WHORE'which means 'Well done'
&ltlamer1> lamer2 your mamma so fat we need two bots to ban her &ltlamer2> heh
* lamer1 has joined #lamer2000 * lamer2 sets mode: +b *!*@*.no * lamer1 was kicked by lamer2 (nothing but spam and general lameness)
| |
| |<--------10' pole
| |
| |
| |
| |
| |
| |
| |
| |--------------------------------> /me not touching

[15:10] * Vegar- has quit IRC (Quit: /\/\_/\__/\____/\_______________ think we lost him!!)
<j0n> two people, /nick and /quit are on a boat. /nick falls off the boat. who's left on the boat? <skldhxr> muhaha <j0n> it works in newbie chans :P <afKay> rofl <afKay> nice <skldhxr> haha
[00:23] <jbaudio> Computer games don't affect kids. I mean if Pac Man had affected us as kids, we'd all be running around in darkened rooms, bumping into people, munching pills and listening to repetitive electronic music.'
<Vern> <Sui88> 67% of girls are stupid <Vern> <V-girl> i belong with the other 13%
<Raphael^^> between PMS and bad moods, we just simply don't care.
<zrv3tte00> makijng the band is the most pathetic mtv show ever <zrv3tte00> puff daddy thinks he's a real musician, so he makes a rap band up related to himself <zrv3tte00> ya think anyone of his friends sits him down and says "you no talent fucking dueche-bag loser punk ass trick....biggy would beat you over the head if he was still alive!!!!" <zrv3tte00> but nooo he has all yes-men...who toss his salad 24/7 <zrv3tte00> in the grand scheme of the universe his is fart in the universe
<QuantumG> this is more a c++ question btw.. people on #c++ might actually care, although it is unlikely
<starw|nd> hm.. when i include with the html, the table border gets broken, but nothing appears <Bazted> ALL OF YOU ARE FUCKING GEEKS, STUPID NERDS!!!!!! <Bazted> ALL OF YOU ARE FUCKING GEEKS, STUPID NERDS!!!!!! <Bazted> ALL OF YOU ARE FUCKING GEEKS, STUPID NERDS!!!!!! <Bazted> ALL OF YOU ARE FUCKING GEEKS, STUPID NERDS!!!!!! <Bazted> ALL OF YOU ARE FUCKING GEEKS, STUPID NERDS!!!!!! <Bazted> ALL OF YOU ARE FUCKING GEEKS, STUPID NERDS!!!!!! <Bazted> ALL OF YOU ARE FUCKING GEEKS, STUPID NERDS!!!!!! <Bazted> ALL OF YOU ARE FUCKING GEEKS, STUPID NERDS!!!!!! <Bazted> ALL OF YOU ARE FUCKING GEEKS, STUPID NERDS!!!!!! <Bazted> ALL OF YOU ARE FUCKING GEEKS, STUPID NERDS!!!!!! <Bazted> ALL OF YOU ARE FUCKING GEEKS, STUPID NERDS!!!!!! ::: Mode (Phrix:#html +b *!*smoo@*.skyinet.net) <peasant> sigh... makes me feel young again... <starw|nd> well, meet a geek with +o
:: [#sweden] Topic: 'Medellängden på mannens penis är ~15cm. Vaginan tar in ~20 cm. Detta innebär att det finns ungefär 150km oknullat fitt utrymme i sverige! :)'
[4:37am] emj was kicked by Birgitte (banned: Spambots are not welcome) (%) Topic is ' [KtK] 12.18.01.Capitalism_II-FLT | Dumps Accepted 10/100mbit+ only /msg op- | NO !list/ratio/trades/banner/www/General Lame Shit' [4:54am] <NuBBeR> [/ctcp NuBBeR Get da shit ] Has A Open Spot Thanx To [starw|nd ] «~{Zy-Script 2.1}~» cont [2:27am] <Rainmaker> OMG [2:27am] <Rainmaker> THKYOU SO VERY MUCH [2:27am] <Zygote-> woohoo!
<Lundberg> My goodness. Is this place always this bad on a Saturday morning? <keksimlje> OMG PPL ASKING FOR HELP ON A JAVA ROOM, QUICK EVERYONE RUN <keksimlje> man stfu lundberg * boxedvoid sets mode: +b *!*@144.136.254.57 * keksimlje was kicked by JVM (Banned)
<Mr|Dave|> queerty your mamma so fat we need two bots to ban her <QwErTy> heh
<gnuman> hmmm if MS goes through with the iLoo I swear then mac should release the iBrator <gnuman> it wouldn't be a bad idea ;)
* Furan changes topic to 'http://Winprog.NET | <juno303> I keep getting WM_CLUE but I don't know how to handle it'
-A common mistake that people make when trying to design something completely foolproof is to underestimate the ingenuity of complete fools - Douglas Adams, Mostly Harmless-
<][aDEs> <zrv3tt3> ok...linux is made by linus....he makes fun of bill gates <zrv3tt3> he's a cool guy....linux is cool too <zrv3tt3> su is superuser <zrv3tt3> any questions? <starw|nd> lol <zrv3tt3> :P <grafz0re> HAHAHA
<Yuhjn> the reviews say that at 1920x1200 it's absolutly beautiful <Yuhjn> dvd's can be played widscreen cause it can handle the 16:10 aspect <starw|nd> how much for this blowjob? <Yuhjn> $1800 <Yuhjn> after shipping (%) [eloi] changes topic to '<starw|nd> how much for this blowjob? <Yuhjn> $1800 <Yuhjn> after shipping' <Yuhjn> just under 100 pounds... thats nuts <NotWord> heh <Yuhjn> :) <starw|nd> haha * [eloi] wonders how to ship a blowjob
[23:27] * mircmirc has joined #bookwarez [23:30] <mircmirc> @find how to start a converstation and make friend [23:30] * mircmirc was kicked by brain (read the !rules please :)) [23:31] * car has joined #bookwarez [23:31] * shafkore has quit IRC (Quit: —I-n-v-i-s-i-o-n— 2.0 Build 2520) [23:31] <Xerox09> !addquote [17:30] <mircmirc> @find how to start a converstation and make friend
* VerTiCal_ has quit IRC (Quit: Om du hadde stått med bæsj opp til halsen, og noen hadde kasta en stein mot trynet ditt, ville du da ha dukka?)
MOTD: -Pascal keeps your hand tied. C gives you enough rope to hang yourself-
[16:35] <Kniht> everyone's a dick on irc, the men are men, the women are men, and the children are fbi [16:35] <Gambit-> Kniht, that's calcable. [16:35] <sun2k> haha [16:35] <Gambit-> calc dick [16:35] <CalcMe> no entry for "dick" [16:35] <Gambit-> There you og [16:35] <Kniht> calc fbi [16:35] <CalcMe> fbi = on irc the men are men, the women are men and the kids are fbi agents [16:35] <sun2k> FBI, get your hands of the keyboard and stand up SLOWLY !
[17:40] <Lakario> I've been inside so long I'm whiter than #FFFFFF!
<Stormrider> I should bomb something <Stormrider> ...and it's off the cuff remarks like that that are the reason I don't log chats <Stormrider> Just in case the FBI ever needs anything on me <Elzie_Ann> I'm sure they can just get it from someone who DOES log chats. *** FBI has joined #gamecubecafe <FBI> We saw it anyway. *** FBI has quit IRC (Quit: )
<xterm> The problem with America is stupidity. I'm not saying there should be a capital punishment for stupidity, but why don't we just take the safety labels off of everything and let the problem solve itself?
<t3hpwn> Only in the US will you find people who think the moon landing was fake and wrestling is real...
<AgentSmith> It seems you have been leading two lives, Mr. Anderson. In one life, you are Robert Anderson, assistant cook at a Jack in the Box in Mesquite....in the other...you go by the chat alias "Randerson"...spreading homosexual propoganda, lying, and being a generally immature pest... <AgentSmith> One of these...has a future. <Randerson> LMAO OMFG where's the phone, I have to tell Dean about this <AgentSmith> How can you use the phone when you cannot...speak? *** AgentSmith sets mode: +m
<kow`> "There are 10 types of people in the world... those who understand binary and those who don't." <SpaceRain> That's only 2 types of people, kow. <SpaceRain> STUPID
<studdud> what the fuck is wtf
*** Quits: TITANIC (Excess Flood)
<h|tler> HOW THE FUCK CAN YOU TELL THAT I'M 13 BY LOOKING AT WHAT I'M WRITEING?????????????????????????????????????????????????????
<Opcode> i was gonna call 911...but i was downloading a file
<liquidpla> oh ok, b/c i don't see a RTFM.h file
<PoseFant> sars was a wannabe disease ... <nostalg1c> systematic asian removal system
* jaggz has joined #c * stdout sets mode: +v jaggz <jaggz> Why, thank you mr. stdout * sp0 has quit IRC * jaggz was kicked by Cyrix (You have exceeded the Moron Tolerance Threshhold for this channel ===)

1/10/10

Tab: The Abyss - Sepultura

The Abyss / Andreas Kisser (From Schizophrenia by Sepultura) Edited by Eivind F. (eivind256 at hotmail dot com) Built on the tab by Hellfire and Nomad. Original notes remain, as I do not have the CD anymore (stolen :-( I just got the .mp3 for the song and.... Its supposed to be downtuned half a step..and thats almost correct.. but unfortunately, Andreas plays an out-of-tune guitar here. I tuned down, it didnt work so i had to tune each string specifically for the song then i strummed a few chords.. yuck.. really out of tune, although its sounds fairly ok on the album. hrm. (Tsk.tsk...its their 3rd album....should have learned to tune their guitars by now!) News: I used Soundforge to up-tune the mp3! I Tuned it up 35/100 of a semitone which at least made the bass string in tune. Its a file called AbyssInTune.mp3 (well..not completely...some strings are relatively out of tune) but at least you wont need to retune your guitar! Intro: First bars open with fingerpicked chords (see the original for the details, this is easy anyway) Chords:
e  0       0
b  0       0
g  8       3
d  10      5
a  9       4
E  7  and  2
Just alternate between these two. Then comes the main melody. I just rewrote some of it to standard chords (i guess Andreas plays it more like this), the original was quite a weird thing for me to do. You'll notice that it'just to move up and down the neck with pretty much the same fingerpositions. Room for plenty of improvisations!
 Verse 1 (also, i tried to name the chords)
G+ ?    #Am      Bm      #Cm     Bmsus2   Gdim?
  0       1       2       3        4       5
e |-------|-------|-------|-------||-------|-----0-|
b |-------|-----2-|-3-2---|-5-----||---2---|-----2-|
g |-----3-|-3-4---|-----4-|---7-6-||-4---4-|-3-----|
d |---5---|-------|-------|-------||-------|-4-----|
a |-4-----|-1-----|-2-----|-4-----||-2-----|-------|
E |-2-----|-------|-------|-------||-------|-------|

ok i give up the nuances!, im no theory wizard

   D        #A       G      F#
   6         7    
e ||-------|r|-------|-------|-------|-------2-|
b ||-7-5---|e|-2-0---|-0-----|-----0-|-2-------|
g ||-----7-|p|-----0-|---0-3-|---3---|---3-----|
d ||-------|3|-------|-------|-4-----|-----4---|
a ||-5-----|&|-1-----|-------|-------|---------|
E ||-------|2|-------|-3-----|-2-----|-2-------|

Sequence:
Play 0...5,
   0...3,6,3,2,7...

Outro:
e |--------|-------|--------|---------|------------|
b |--------|-----7-|-10-8-7-|---12-10-|------------|
g |------8-|-8-9---|--------|---------|----12-11-9-|
d |---10---|-------|--------|---------|------------|
a |-9------|-6-----|-7------|-9-------|-10---------|
E |-7------|-------|--------|---------|------------|

                                 twice
e |0-------0-0|------------------|------------|-------------|
b |--12-10-8-7|------------------|------------|-------------|
g |--12-11----|7-9-7-6-7-4-3-----|----0----0--|---7----6--4-|
d |-----------|--------------4-8-|-9-----9----|-9----8----4-|
a |-----------|9-----8-------7-9-|---9-9--9-9-|--9-9--9-9-5-|
E |0-------9--|------------------|-7----------|-7----6----7-|