Showing posts with label guitar tab soulshimmer. Show all posts
Showing posts with label guitar tab soulshimmer. Show all posts

6/14/11

Tab: Soulshimmer

"Soulshimmer" - Written by me ca. anno. 2006


EM

------0---0-----------0---------------
------0---0-----------0---------------
---0----0---0-------0------0----------
------------------2-------------------
-------------------------2------------
-0------------------------------------

C

------0---0-------
------1---1-------
---0----0---0-----
------------------
--3---------------
------------------


C
------0---0-------
------1---1-------
---0----0---------
------------------
--2----------0----
---------------3--




G
------3---3~~-----
------0---0h1-----
---0----0---------
------------------
------------------
--3---------------

------3---3~~-----
------0---1p0-----
---0----0---------
------------------
------------------
--3---------------

------3---3~~-----
------3---3-------
---0----0----0----
------------------
------------------
--3---------------

------3---3~~-----
------3---3p0-----
---0----0----0----
------------------
------------------
--3---------------



------------------
------------------
------------------
------------------
------------------
---2b3b2----------




---------0-----0---h----
---------12----12--10---
------12----12-12--11---
------------------------
------------------------
--0---------------------


---------0-----0--------
---------10----10-s-8---
------11----11-11-s-9---
------------------------
------------------------
--0---------------------


---------0----0---------
---------8----8-s-7-----
------9----9--9---8-----
------------------------
------------------------
--0---------------------


---------0-----0--------
---------8-----0--------
------9----9------------
------------------------
------------------------
--0---------------------