Showing posts with label brothers. Show all posts
Showing posts with label brothers. Show all posts

5/15/09

Tab: Brothers in Arms

Please, note, this is not complete, but has most parts covered. This represents my personal interpretation of the song, and may only be used non-commercially. Not that difficult to play, but you‘ll need to put some feeling into it. Timing not represented, and you’ll have to add vibrato at proper places. Everything should be here (it’s a lot to learn!), including the fade-outro as far as I could hear it. This song is a real beauty, and it’s awsome to play when you get it right! Offcourse, there are mistakes here, and I know about some of them too, especially the two-string chords(the distortion distorted me too). Feel free to correct them. (But let me know about it!) Some parts may be more or less correct to play at other frets, with respect to the sound, but I usually stay around fret 12. Tune down to Db. (half step) Synth intro (F and Em) Notation: 7s9 slide 7h9 hammer 9p7 pull 7b9 bend 9b7 prebend (or release) x mute xs pick slide | these bars separate the parts/riffs pm palm mute


Intro (Synth part goes in Em and F.)

00:37
---------|--------|-----------------------|----------
---------|--------|-----------------------|----------
---------|--------|-----------------------|----------
---7-9-7-|-7-9-7--|---9b10s12-10----------|-12-14-12-
-5s7-----|--------|-x------------12-10-12-|----------
---------|--------|-----------------------|----------

------------------------------------|-------|------------
------------------------------------|-------|------------
------------------------------------|-------|------------
-12b14-12---------------------------|-------|------------
----------15-14-12----12-14-12---12-|-15b17-|---12-14-12-
-------------------15----------15---|-------|-15---------

Verse 1

-----------------|-----------------|-------|-------
-----------------|-----------------|-------|-------
-----------------|-----------------|-------|-------
-12b14b12p10h12--|--14-12----12h14-|-14----|-------
-----------------|-----------------|----14-|-------
-----------------|-----------------|-------|-------


----------|-----------------------------|----------
----------|-----------------------------|----------
-10-7-----|-----------------------------|----------
-12-9-----|-10p9h10s12-10-9-------------|----------
----------|-----------------12-10-12-12-|----------
----------|-----------------------------|----------

--------------------------------------------|----
--------------------------------------------|----
--------------------------------------------|----
-12----10-9-12-10-9-------------12-14-12----|-14-
--------------------12-10-12----------------|----
--------------------------------------------|----


-----------|---------|-----------|-------
-----------|---------|-8-7---8---|-------
--9p7---7--|-9-10-12-|-----9-----|-------
------7-7h9|---------|---------9-|-10-12-
-----------|---------|-----------|-------
-----------|---------|-----------|-------
pm
------------|------------|--------|
-10-8-7-8---|------------|--------|
----------9-|------------|-10-9-7-|
------------|-10-12-10-9-|-12---9-|
------------|------------|--------|
------------|------------|--------|

-------------------------------|---------------------------
-------------------------------|------------------------------
----12b14-14b12----------------|-----------------------------------
-14------------14-12-----------|-9b10s12-10-9------9-------------14-12-
---------------------15-14--12-|--------------10-12--12-12--14-15---
--------------------------15---|----------------------------------

----|-------------------------|-------------|------------|
----|---------------5-----5-8-|-------------|-6-5-----5--|
----|-12-s--------5---7-7-----|-4-5-4---5s7-|-----7-5--7-|
-14-|-12-s------7-------------|-------7-----|------------|
----|-------5s7---------------|-------------|------------|
----|-------------------------|-------------|------------|


1st. solo (well, it’s all a kind of solo)
------|--------------------------------------------------------
------|---------------------------------------------------------
------|-------------12b14b12----12b14-12----------12b14-14h16p14-----
------|-------12-14----------15----------14----14----------------17-15-
-xs-3-|-12-15-------------------------------15----------------------
----1-|-----------------------------------------

-------------------------------------------------
-------------------------------------------------
----12----12----12b14-12-------------------------
-14----14----14----------14-12-------------------
-------------------------------15-14-12----12-12-
----------------------------------------15-------

------------------------------|--------------|----
------------------------------|--------------|----
------------------------------|--------------|----
-10-12-x-14b12-10-------14-12-|-14-12-10-9-7-|----
------------------12-15-------|--------------|----
------------------------------|--------------|----

----------|-------|-------------------|---------------------------
----------|-------|-------------------|---------------------------
----------|-------|-14b16b14-12h14p12-|---------------------------
-12-12----|-15s17-|-------------------|14-------------14-15--14---
-12-12h14-|-------|-------------------|---------12-15----------15-
----------|-------|-------------------|---13-15-------------------

------------------------------------|----|------------|
-10b12-10---10b12b10b12-12s--12-10--|----|-6-5--------|
----------12---------------12-------|-12-|-----10-9-7-|
------------------------------------|----|-----12---9-|
------------------------------------|----|------------|
------------------------------------|----|------------|

2nd. solo
----------------------------|-------------------------------
----------------------------|-------------------------------
-12b14-12-------------------|----14-12b14-14-16-14----12b14-
----------14-12-------------|-14-------------------17-------
----------------15-14----12-|-------------------------------
----------------------15----|-------------------------------

?????????????????
-------------------|--------------------------|---------------------
-------------------|--------------------------|---------------------
-14-12-------------|-7h9-7-7--7-7--7-7-7------|---------------------
-------15-14----12-|-7---7-10-7-10-9-7-9------|------12-12b14b12----
-------------15----|--------------------------|-x-15-------------15-
-------------------|--------------------------|---------------------

???????????????????
------------------------------------
------------------------------------
---------------12-12----------------
---------------12-12h14p12-12-12----
-12-15-14-15-x-------------12-12h15-
------------------------------------

Last solo
-----------------------------------------------------
-----------12-13-13----------------12-13-13----13b15-
--------------------12s14----12-14----------14-------
----12-14-----------12s14-14-------------------------
-15--------------------------------------------------
-----------------------------------------------------
?????????????????????
---------------------------------------------------
-13b15b13-12---------------------------------------
-------------14-12---------------------------------
-------------------14-12-14-------12---------------
----------------------------15-14----15-14-15---12-
----------------------------------------------15---

Outro ( ?????????
-----------------------------------------|--------------|-
-----------------------------------------|--------------|-
-----------------------------12-x-x-x-12-|-12-12-12-12--|-
---10-12-12b14----12b14----x-12-------12-|-17-15-15-14--|-
-x-------------15-------15---------------|--------------|-
-----------------------------------------|--------------|-

??? ????????????
-------|---------------|-------|-----------------
-------|-6-5-----------|-------|-----------------
-12----|-----7-5-------|-12----|-12----12--------
-12-12-|---------7-----|-12h14-|-12h14-12-12-12-
----12-|---------------|-------|----------15-12--
-------|---------------|-------|-----------------


--------------------------------15---------------------12----
-----------13b15-13-12-13b15-13----15b17b15-13-12---13----15-
----12-14----------------------------------------14----------
-14----------------------------------------------------------
-------------------------------------------------------------
-------------------------------------------------------------

???????????????
-12h13p12---12-----------------------------------------
----------15---13-15----13-12--------------------------
------------------------------12b14-14-12---------------
---------------------14-------------------------
----------------------------------------------
----------------------------------------------

----------------------------------------------
----------------------------------------------5b6--
------5---7-7b9b7-5------------------7----5-7---
--5-7---------------7--x-x-x-5h7p5h7----7-------
--------------------------------------------------
------------------------------------------------
pm

--------5-5--------------------------------------
-5b-----8-6--5-6-5------------------------------------
-5b-7-5------------7-5-------------------------------
-----------------------------------------------
-----------------------------------------------
-----------------------------------------------
bend delay
1/4 ----------
step

--------------------------------13-12----12--------
-----------------12-13-13------15-----13----13b15-----
-12-14-12-14--14-----------14-14-----------------------
------------------------------------------------------
------------------------------------------------------
------------------------------------------------------
almost mute these notes
----
-----13-12---------------------------------------------
--15------15-13-12-13-12-------------------------------
-14---------------------14-12---------12---------------
-----------------------------14-12-14----14-12---------
----------------------------------------------15-14-12-
-------------------------------------------------------
here too
---
------------------------------------------------------
------------------------------------------------------
------------------------------------------------------
------------------------------------------------------
-s-12-14-15--14--12-------s-12------------------------
--------------------15-12------15---------------------