Showing posts with label scorpions. Show all posts
Showing posts with label scorpions. Show all posts

2/14/10

Tab: Still loving you - Scorpions

Wind of Changes (Scorpions)
Acoustic intro

Just heard it on the radio, and i wanna write it down before i forget this nice tune from memory

By E.F.

e ---8----------8------8-------11-10-8-----
b -----10---------10-----10-------10---10----
g --------9---------9-------9-----------------
d -------------------------------------------
a -0----------8--------9--------------------
E -----------------------------------------

e ---8---------8----7-----10----------
b -----10-------------9---9------------
g --------9-10----------9---------------
d ---------------------------------
a -8--------------7------------------
E ---------------------------------
Anyway it sounds like a good doodle.